Paciencia (Lenini)

G5(7M) G5(6) G5
E|------------------------------------------|
B|-----3-----3---------3-----3--------------|
G|-------0-----0---------0-----0------------|
D|---4-----4-----4---2-----0-----0----------|
A|------------------------------------------|
E|-3---------------3------------------------|

Em7(9) Em7
E|------------------------------------------|
B|-----3-----3---------3-----3--------------|
G|-------0-----0---------0-----0------------|
D|---4-----4-----4---2-----0-----0----------|
A|------------------------------------------|
E|-0---------------0------------------------|

C4+(9) C9 C2(9)
E|------------------------------------------|
B|-----3-----3---------3-----3--------------|
G|-------0-----0---------0-----0------------|
D|---4-----4-----4---2-----0-----0----------|
A|-3---------------3------------------------|
E|------------------------------------------|

G5
E|------------------------------------------|
B|-----3-----3---------3-----3--------------|
G|-------0-----0---------0-----0------------|
D|---0-----0-----0---0-----0-----0----------|
A|------------------------------------------|
E|-3---------------3------------------------|

|| G5(7M)             G5(6)              | Em7(9)                    |
Mesmo quando tudo pede um pouco mais de calma
| C4+(9)                 C9                          |
Até quando o corpo pede um pouco mais de alma
| G5                          ||
A vida não para

Enquanto o tempo acelera e pede pressa
Eu me recuso faço hora vou na valsa
A vida tão rara

Enquanto todo mundo espera a cura do mal
E a loucura finge que isso tudo é normal
Eu finjo ter paciência

O mundo vai girando cada vez mais veloz
A gente espera do mundo e o mundo espera de nós
Um pouco mais de paciência

|| F7M(9)                             |
Será que é o tempo que lhe falta pra perceber
| Em7(11)                                 |
Será que temos esse tempo pra perder
| C9 Am7(9)                            | Em7(9)                              ||
E quem quer saber, a vida é tão rara, tão rara

Mesmo quando tudo pede um pouco mais de calma
Mesmo quando o corpo pede um pouco mais de alma
Eu sei, a vida não para
G5(7M)        G5(6)          Em7(9)           Em7         C4+(9)        C9          G5
a vida não para não (repete intro)

Será que é tempo que lhe falta pra perceber
Será que temos esse tempo pra perder
E quem quer saber a vida é tão rara. Tão rara

Mesmo quando tudo pede um pouco mais de calma
Até quando o corpo pede um pouco mais de alma
C9      A7(4)        Em7(9)          G5(7M) …(repete intro 2x)
Eu sei, a vida é tão rara… a vida não para não…
G5(7M)
A vida é tão rara

Deja un comentario

Tu dirección de correo electrónico no será publicada. Los campos necesarios están marcados *

Puedes usar las siguientes etiquetas y atributos HTML: <a href="" title=""> <abbr title=""> <acronym title=""> <b> <blockquote cite=""> <cite> <code> <del datetime=""> <em> <i> <q cite=""> <strike> <strong>