Poeta Encadenado (Los Delinquentes)

---------------------------------------------------------------------------
---------------------------------------------------------------------------
-----6-h-4----------------------6--6-----2--2--2-h-1---2-h-1--4-2-h-1----1-
--4---------7-h-6---6-h-4-----3--------0-----------------------------------
---------------------------------------------------------------------------
---------------------------------------------------------------------------

-------------------------------------------------------------------------
-------------------------------------------------------------------------
----2--1-2--1--2--1-2---------1--2--1-h-4---2-h-1-------1-2--------------
--4---------------------2-h-4--------------------2-h-4------4--2-h-4-
-------------------------------------------------------------------------
-------------------------------------------------------------------------

Fa#m            Mi              Re              Do#

||: Fa#m         Mi         | Fa#m         Re         | Fa#m       Mi        | Re           :||

Fa#m                   Mi
Y escucho la resaca en mi cabeza
Re                             Do#
Que me llega del cerebro hasta el oido
Fa#m                             Mi
Se fue por mi garganta hasta mi alma
Re                                  Do#
Se fue la realidad en un suspiro

Fa#m                      Re                                 Mi
Las lagrimas que caen por el filo de mi cara mientras escribo
Fa#m                         Re                                  Mi
Flota en el humo que expande mi mente callada y esconde mi vida en dos

Re           Mi               Fa#m
Y no se lo que hacer
Re            Mi                Fa#m
En una de las dos me perderé
Re
Déjame y en paz
Mi
Déjame viajar
La             Mi            Re                   Fa#m
Mi forma prohibida en libertad, en libertad, en libertad

Fa#m                   Re                            Mi
Y he visto al diablo, hola qué tal cómo te ha ido
Fa#m                   Re                        Mi                          Fa#m
Me tira del pelo y me canta las canciones que escribí pa mis amigos
La                  Mi                       Fa#m
Yo me imagino cuando chico
La                  Mi                        Fa#m
Con los juguetes y la aspirina
Re
Y alucino en mi sueño
Mi
El bicho me hizo efecto
Re                                  Do#
La guitarra se me aleja y llora el viento

Re               Mi                       Fa#m
Y no se lo que hacer
Re                Mi                    Fa#m
En una de las dos me perderé
Re
Déjame y en paz
Mi
Déjame viajar
La                 Mi                     Re                     Fa#m
Mi forma prohibida en libertad, en libertad, en libertad

Fa#m                            Mi
Poco a poco ya se fue el rumor
Re                                Do#
Y otra vez como una flor marchita
Fa#m                             Mi
Se me pasa el efecto y todos gritan
Re                                 Do#
Hasta las nubes me critican
Fa#m                            Re                             Mi
Porque soy un poeta y vivo encadenado al arte y soy callejero
Fa#m                            Re                                 Mi
Porque me gusta mi camino y mi nariz agujereada y corre y vete
Come con arañas

Re            Mi                   Fa#m
Y no se lo que hacer
Re             Mi                   Fa#m
En una de las dos me perderé
Re
Déjame y en paz
Mi
Déjame viajar
La               Mi                   Re
Mi forma prohibida en libertad
La                  Mi                   Re
Mi forma prohibida en libertad
La                  Mi                      Re
Mi forma prohibida en libertad

Deja un comentario

Tu dirección de correo electrónico no será publicada. Los campos necesarios están marcados *

Puedes usar las siguientes etiquetas y atributos HTML: <a href="" title=""> <abbr title=""> <acronym title=""> <b> <blockquote cite=""> <cite> <code> <del datetime=""> <em> <i> <q cite=""> <strike> <strong>